ISO-10303-21;
HEADER;
FILE_DESCRIPTION (( 'STEP AP203' ),
    '1' );
FILE_NAME ('QM-CAHWP-10-450-650-M.STEP',
    '2021-01-05T02:34:05',
    ( '' ),
    ( '' ),
    'SwSTEP 2.0',
    'SolidWorks 2020',
    '' );
FILE_SCHEMA (( 'CONFIG_CONTROL_DESIGN' ));
ENDSEC;

DATA;
#1 = DIRECTION ( 'NONE',  ( -1.000000000000000000, -0.000000000000000000, -0.000000000000000000 ) ) ;
#2 = APPROVAL_STATUS ( 'not_yet_approved' ) ;
#3 = ORIENTED_EDGE ( 'NONE', *, *, #230, .F. ) ;
#4 = AXIS2_PLACEMENT_3D ( 'NONE', #153, #203, #75 ) ;
#5 = SECURITY_CLASSIFICATION_LEVEL ( 'unclassified' ) ;
#6 = EDGE_CURVE ( 'NONE', #314, #305, #130, .T. ) ;
#7 = FACE_OUTER_BOUND ( 'NONE', #303, .T. ) ;
#8 = ORIENTED_EDGE ( 'NONE', *, *, #108, .T. ) ;
#9 = CIRCLE ( 'NONE', #193, 5.000000000000000888 ) ;
#10 = AXIS2_PLACEMENT_3D ( 'NONE', #90, #278, #122 ) ;
#11 = EDGE_LOOP ( 'NONE', ( #79, #76 ) ) ;
#12 = CARTESIAN_POINT ( 'NONE',  ( 3.000000000000000000, 0.000000000000000000, 0.000000000000000000 ) ) ;
#13 = CARTESIAN_POINT ( 'NONE',  ( -1.614212418857619014, 0.000000000000000000, 0.000000000000000000 ) ) ;
#14 = DIRECTION ( 'NONE',  ( 0.000000000000000000, 0.000000000000000000, 1.000000000000000000 ) ) ;
#15 = EDGE_CURVE ( 'NONE', #159, #25, #142, .T. ) ;
#16 = ADVANCED_FACE ( 'NONE', ( #274, #86 ), #291, .F. ) ;
#17 = CARTESIAN_POINT ( 'NONE',  ( 3.000000000000000000, 0.000000000000000000, 12.69999999999999929 ) ) ;
#18 = PRODUCT_DEFINITION_SHAPE ( 'NONE', 'NONE',  #100 ) ;
#19 = ADVANCED_FACE ( 'NONE', ( #242, #241 ), #137, .F. ) ;
#20 = EDGE_CURVE ( 'NONE', #305, #314, #259, .T. ) ;
#21 = DIRECTION ( 'NONE',  ( -1.000000000000000000, -0.000000000000000000, -0.000000000000000000 ) ) ;
#22 = CC_DESIGN_APPROVAL ( #265, ( #172 ) ) ;
#23 = CARTESIAN_POINT ( 'NONE',  ( -1.614212418857619014, 0.000000000000000000, 0.000000000000000000 ) ) ;
#24 = ORIENTED_EDGE ( 'NONE', *, *, #84, .F. ) ;
#25 = VERTEX_POINT ( 'NONE', #114 ) ;
#26 = DATE_TIME_ROLE ( 'creation_date' ) ;
#27 = PERSON_AND_ORGANIZATION ( #228, #115 ) ;
#28 = APPROVAL_PERSON_ORGANIZATION ( #206, #237, #129 ) ;
#29 = COORDINATED_UNIVERSAL_TIME_OFFSET ( 8, 0, .AHEAD. ) ;
#30 = ORIENTED_EDGE ( 'NONE', *, *, #15, .F. ) ;
#31 = AXIS2_PLACEMENT_3D ( 'NONE', #215, #271, #38 ) ;
#32 = VECTOR ( 'NONE', #169, 1000.000000000000000 ) ;
#33 = PERSON_AND_ORGANIZATION_ROLE ( 'classification_officer' ) ;
#34 = ORIENTED_EDGE ( 'NONE', *, *, #20, .T. ) ;
#35 = EDGE_CURVE ( 'NONE', #65, #167, #223, .T. ) ;
#36 = PERSON_AND_ORGANIZATION ( #228, #115 ) ;
#37 = CARTESIAN_POINT ( 'NONE',  ( -0.5000000000000002220, 0.000000000000000000, 0.000000000000000000 ) ) ;
#38 = DIRECTION ( 'NONE',  ( 0.000000000000000000, 0.000000000000000000, 1.000000000000000000 ) ) ;
#39 = AXIS2_PLACEMENT_3D ( 'NONE', #139, #296, #140 ) ;
#40 = LOCAL_TIME ( 10, 34, 5.000000000000000000, #267 ) ;
#41 = DIRECTION ( 'NONE',  ( -1.000000000000000000, -0.000000000000000000, -0.000000000000000000 ) ) ;
#42 = DIRECTION ( 'NONE',  ( -0.000000000000000000, 0.000000000000000000, 1.000000000000000000 ) ) ;
#43 = APPLICATION_CONTEXT ( 'configuration controlled 3d designs of mechanical parts and assemblies' ) ;
#44 = CARTESIAN_POINT ( 'NONE',  ( -1.614212418857619014, 0.000000000000000000, 5.000000000000000888 ) ) ;
#45 = APPROVAL_PERSON_ORGANIZATION ( #262, #113, #175 ) ;
#46 = CARTESIAN_POINT ( 'NONE',  ( -3.000000000000000000, 6.123233995736766282E-16, -5.000000000000000000 ) ) ;
#47 = LINE ( 'NONE', #44, #82 ) ;
#48 = CARTESIAN_POINT ( 'NONE',  ( 0.5000000000000004441, 6.123233995736766282E-16, -5.000000000000000000 ) ) ;
#49 = CLOSED_SHELL ( 'NONE', ( #281, #209, #309, #121, #240, #136, #19, #85, #16, #194 ) ) ;
#50 = AXIS2_PLACEMENT_3D ( 'NONE', #201, #1, #56 ) ;
#51 = DIRECTION ( 'NONE',  ( -1.000000000000000000, -0.000000000000000000, -0.000000000000000000 ) ) ;
#52 = ORIENTED_EDGE ( 'NONE', *, *, #35, .T. ) ;
#53 = APPROVAL_DATE_TIME ( #334, #237 ) ;
#54 = APPLICATION_CONTEXT ( 'configuration controlled 3d designs of mechanical parts and assemblies' ) ;
#55 = CC_DESIGN_APPROVAL ( #237, ( #165 ) ) ;
#56 = DIRECTION ( 'NONE',  ( 0.000000000000000000, 0.000000000000000000, 1.000000000000000000 ) ) ;
#57 = EDGE_LOOP ( 'NONE', ( #307, #208 ) ) ;
#58 = ORIENTED_EDGE ( 'NONE', *, *, #301, .T. ) ;
#59 = CC_DESIGN_PERSON_AND_ORGANIZATION_ASSIGNMENT ( #258, #77, ( #165 ) ) ;
#60 = DIRECTION ( 'NONE',  ( 0.000000000000000000, 0.000000000000000000, 1.000000000000000000 ) ) ;
#61 = DIRECTION ( 'NONE',  ( -1.000000000000000000, -0.000000000000000000, -0.000000000000000000 ) ) ;
#62 = ORIENTED_EDGE ( 'NONE', *, *, #317, .F. ) ;
#63 = CARTESIAN_POINT ( 'NONE',  ( 3.000000000000000000, 0.000000000000000000, 0.000000000000000000 ) ) ;
#64 = EDGE_CURVE ( 'NONE', #124, #246, #236, .T. ) ;
#65 = VERTEX_POINT ( 'NONE', #187 ) ;
#66 = CARTESIAN_POINT ( 'NONE',  ( -1.614212418857619014, 0.000000000000000000, 5.000000000000000888 ) ) ;
#67 = FACE_OUTER_BOUND ( 'NONE', #198, .T. ) ;
#68 = AXIS2_PLACEMENT_3D ( 'NONE', #156, #61, #158 ) ;
#69 = EDGE_LOOP ( 'NONE', ( #280, #263 ) ) ;
#70 = DIRECTION ( 'NONE',  ( 0.000000000000000000, 0.000000000000000000, 1.000000000000000000 ) ) ;
#71 = EDGE_LOOP ( 'NONE', ( #329, #150, #62, #24 ) ) ;
#72 = FACE_OUTER_BOUND ( 'NONE', #231, .T. ) ;
#73 = ORIENTED_EDGE ( 'NONE', *, *, #317, .T. ) ;
#74 = VECTOR ( 'NONE', #248, 1000.000000000000000 ) ;
#75 = DIRECTION ( 'NONE',  ( 0.000000000000000000, 0.000000000000000000, 1.000000000000000000 ) ) ;
#76 = ORIENTED_EDGE ( 'NONE', *, *, #154, .F. ) ;
#77 = PERSON_AND_ORGANIZATION_ROLE ( 'creator' ) ;
#78 =( NAMED_UNIT ( * ) PLANE_ANGLE_UNIT ( ) SI_UNIT ( $, .RADIAN. ) );
#79 = ORIENTED_EDGE ( 'NONE', *, *, #64, .F. ) ;
#80 = CARTESIAN_POINT ( 'NONE',  ( 3.000000000000000000, 12.69999999999999929, 0.000000000000000000 ) ) ;
#81 = CARTESIAN_POINT ( 'NONE',  ( -3.000000000000000000, 5.000000000000000000, 0.000000000000000000 ) ) ;
#82 = VECTOR ( 'NONE', #300, 1000.000000000000000 ) ;
#83 = DIRECTION ( 'NONE',  ( -1.000000000000000000, -0.000000000000000000, -0.000000000000000000 ) ) ;
#84 = EDGE_CURVE ( 'NONE', #167, #173, #116, .T. ) ;
#85 = ADVANCED_FACE ( 'NONE', ( #7 ), #160, .T. ) ;
#86 = FACE_BOUND ( 'NONE', #180, .T. ) ;
#87 = ORIENTED_EDGE ( 'NONE', *, *, #301, .F. ) ;
#88 = CC_DESIGN_SECURITY_CLASSIFICATION ( #172, ( #165 ) ) ;
#89 = EDGE_CURVE ( 'NONE', #331, #134, #247, .T. ) ;
#90 = CARTESIAN_POINT ( 'NONE',  ( -0.5000000000000002220, 5.000000000000000000, 0.000000000000000000 ) ) ;
#91 = ADVANCED_BREP_SHAPE_REPRESENTATION ( 'QM-CAHWP-10-450-650-M', ( #227, #213 ), #319 ) ;
#92 = DIRECTION ( 'NONE',  ( -1.000000000000000000, -0.000000000000000000, -0.000000000000000000 ) ) ;
#93 = DIRECTION ( 'NONE',  ( -1.000000000000000000, -0.000000000000000000, -0.000000000000000000 ) ) ;
#94 = AXIS2_PLACEMENT_3D ( 'NONE', #302, #143, #14 ) ;
#95 = FACE_OUTER_BOUND ( 'NONE', #71, .T. ) ;
#96 = ORIENTED_EDGE ( 'NONE', *, *, #128, .F. ) ;
#97 = EDGE_LOOP ( 'NONE', ( #256, #30 ) ) ;
#98 = PERSON_AND_ORGANIZATION_ROLE ( 'design_owner' ) ;
#99 = AXIS2_PLACEMENT_3D ( 'NONE', #63, #41, #60 ) ;
#100 = PRODUCT_DEFINITION ( 'UNKNOWN', '', #165, #104 ) ;
#101 = CC_DESIGN_APPROVAL ( #113, ( #100 ) ) ;
#102 = EDGE_CURVE ( 'NONE', #134, #331, #204, .T. ) ;
#103 = CARTESIAN_POINT ( 'NONE',  ( 0.000000000000000000, 0.000000000000000000, 0.000000000000000000 ) ) ;
#104 = DESIGN_CONTEXT ( 'detailed design', #54, 'design' ) ;
#105 = EDGE_CURVE ( 'NONE', #25, #159, #9, .T. ) ;
#106 = DIRECTION ( 'NONE',  ( 1.000000000000000000, 0.000000000000000000, 0.000000000000000000 ) ) ;
#107 = ORIENTED_EDGE ( 'NONE', *, *, #89, .F. ) ;
#108 = EDGE_CURVE ( 'NONE', #134, #305, #318, .T. ) ;
#109 = CC_DESIGN_DATE_AND_TIME_ASSIGNMENT ( #207, #214, ( #172 ) ) ;
#110 = PERSON_AND_ORGANIZATION_ROLE ( 'design_supplier' ) ;
#111 = CALENDAR_DATE ( 2021, 5, 1 ) ;
#112 = DIRECTION ( 'NONE',  ( -1.000000000000000000, -0.000000000000000000, -0.000000000000000000 ) ) ;
#113 = APPROVAL ( #264, 'UNSPECIFIED' ) ;
#114 = CARTESIAN_POINT ( 'NONE',  ( -0.5000000000000002220, 0.000000000000000000, 5.000000000000000888 ) ) ;
#115 = ORGANIZATION ( 'UNSPECIFIED', 'UNSPECIFIED', '' ) ;
#116 = LINE ( 'NONE', #294, #311 ) ;
#117 = CARTESIAN_POINT ( 'NONE',  ( -0.5000000000000002220, 0.000000000000000000, 0.000000000000000000 ) ) ;
#118 = DIRECTION ( 'NONE',  ( 1.000000000000000000, 0.000000000000000000, 0.000000000000000000 ) ) ;
#119 = LOCAL_TIME ( 10, 34, 5.000000000000000000, #29 ) ;
#120 = CARTESIAN_POINT ( 'NONE',  ( -3.000000000000000000, 0.000000000000000000, 0.000000000000000000 ) ) ;
#121 = ADVANCED_FACE ( 'NONE', ( #123 ), #219, .F. ) ;
#122 = DIRECTION ( 'NONE',  ( 0.000000000000000000, 0.000000000000000000, -1.000000000000000000 ) ) ;
#123 = FACE_OUTER_BOUND ( 'NONE', #69, .T. ) ;
#124 = VERTEX_POINT ( 'NONE', #330 ) ;
#125 = AXIS2_PLACEMENT_3D ( 'NONE', #120, #92, #70 ) ;
#126 = CARTESIAN_POINT ( 'NONE',  ( 0.5000000000000002220, 5.000000000000000000, 0.000000000000000000 ) ) ;
#127 = ORIENTED_EDGE ( 'NONE', *, *, #102, .F. ) ;
#128 = EDGE_CURVE ( 'NONE', #331, #314, #222, .T. ) ;
#129 = APPROVAL_ROLE ( '' ) ;
#130 = CIRCLE ( 'NONE', #68, 5.000000000000000000 ) ;
#131 =( NAMED_UNIT ( * ) SI_UNIT ( $, .STERADIAN. ) SOLID_ANGLE_UNIT ( ) );
#132 = PERSON_AND_ORGANIZATION ( #228, #115 ) ;
#133 = APPROVAL_DATE_TIME ( #306, #113 ) ;
#134 = VERTEX_POINT ( 'NONE', #199 ) ;
#135 = CALENDAR_DATE ( 2021, 5, 1 ) ;
#136 = ADVANCED_FACE ( 'NONE', ( #190 ), #226, .F. ) ;
#137 = PLANE ( 'NONE',  #191 ) ;
#138 = APPROVAL_DATE_TIME ( #210, #265 ) ;
#139 = CARTESIAN_POINT ( 'NONE',  ( 0.5000000000000004441, 0.000000000000000000, 0.000000000000000000 ) ) ;
#140 = DIRECTION ( 'NONE',  ( 0.000000000000000000, 0.000000000000000000, 1.000000000000000000 ) ) ;
#141 = DIRECTION ( 'NONE',  ( 0.000000000000000000, 0.000000000000000000, 1.000000000000000000 ) ) ;
#142 = CIRCLE ( 'NONE', #202, 5.000000000000000888 ) ;
#143 = DIRECTION ( 'NONE',  ( -1.000000000000000000, -0.000000000000000000, -0.000000000000000000 ) ) ;
#144 = AXIS2_PLACEMENT_3D ( 'NONE', #126, #326, #166 ) ;
#145 = CYLINDRICAL_SURFACE ( 'NONE', #94, 12.69999999999999929 ) ;
#146 = CARTESIAN_POINT ( 'NONE',  ( -1.614212418857619014, 0.000000000000000000, 0.000000000000000000 ) ) ;
#147 = ORIENTED_EDGE ( 'NONE', *, *, #64, .T. ) ;
#148 = DIRECTION ( 'NONE',  ( 0.000000000000000000, 0.000000000000000000, 1.000000000000000000 ) ) ;
#149 = LINE ( 'NONE', #189, #161 ) ;
#150 = ORIENTED_EDGE ( 'NONE', *, *, #269, .T. ) ;
#151 = CALENDAR_DATE ( 2021, 5, 1 ) ;
#152 = CALENDAR_DATE ( 2021, 5, 1 ) ;
#153 = CARTESIAN_POINT ( 'NONE',  ( -1.614212418857619014, 0.000000000000000000, 0.000000000000000000 ) ) ;
#154 = EDGE_CURVE ( 'NONE', #246, #124, #335, .T. ) ;
#155 = ORIENTED_EDGE ( 'NONE', *, *, #157, .T. ) ;
#156 = CARTESIAN_POINT ( 'NONE',  ( 0.5000000000000004441, 0.000000000000000000, 0.000000000000000000 ) ) ;
#157 = EDGE_CURVE ( 'NONE', #25, #124, #47, .T. ) ;
#158 = DIRECTION ( 'NONE',  ( 0.000000000000000000, 0.000000000000000000, 1.000000000000000000 ) ) ;
#159 = VERTEX_POINT ( 'NONE', #253 ) ;
#160 = CYLINDRICAL_SURFACE ( 'NONE', #218, 12.69999999999999929 ) ;
#161 = VECTOR ( 'NONE', #21, 1000.000000000000000 ) ;
#162 = ORIENTED_EDGE ( 'NONE', *, *, #84, .T. ) ;
#163 = DIRECTION ( 'NONE',  ( 0.000000000000000000, 0.000000000000000000, 1.000000000000000000 ) ) ;
#164 = CARTESIAN_POINT ( 'NONE',  ( -3.000000000000000000, 0.000000000000000000, 0.000000000000000000 ) ) ;
#165 = PRODUCT_DEFINITION_FORMATION_WITH_SPECIFIED_SOURCE ( 'ANY', '', #168, .NOT_KNOWN. ) ;
#166 = DIRECTION ( 'NONE',  ( -0.000000000000000000, 0.000000000000000000, 1.000000000000000000 ) ) ;
#167 = VERTEX_POINT ( 'NONE', #17 ) ;
#168 = PRODUCT ( 'QM-CAHWP-10-450-650-M', 'QM-CAHWP-10-450-650-M', '', ( #179 ) ) ;
#169 = DIRECTION ( 'NONE',  ( -1.000000000000000000, -0.000000000000000000, -0.000000000000000000 ) ) ;
#170 = VERTEX_POINT ( 'NONE', #298 ) ;
#171 = DIRECTION ( 'NONE',  ( 0.000000000000000000, 0.000000000000000000, 1.000000000000000000 ) ) ;
#172 = SECURITY_CLASSIFICATION ( '', '', #5 ) ;
#173 = VERTEX_POINT ( 'NONE', #220 ) ;
#174 = PERSON_AND_ORGANIZATION_ROLE ( 'creator' ) ;
#175 = APPROVAL_ROLE ( '' ) ;
#176 = AXIS2_PLACEMENT_3D ( 'NONE', #192, #196, #171 ) ;
#177 = COORDINATED_UNIVERSAL_TIME_OFFSET ( 8, 0, .AHEAD. ) ;
#178 = ORIENTED_EDGE ( 'NONE', *, *, #6, .T. ) ;
#179 = MECHANICAL_CONTEXT ( 'NONE', #43, 'mechanical' ) ;
#180 = EDGE_LOOP ( 'NONE', ( #200, #251 ) ) ;
#181 = SHAPE_DEFINITION_REPRESENTATION ( #18, #91 ) ;
#182 = CARTESIAN_POINT ( 'NONE',  ( -3.000000000000000000, 0.000000000000000000, 0.000000000000000000 ) ) ;
#183 = CC_DESIGN_PERSON_AND_ORGANIZATION_ASSIGNMENT ( #290, #33, ( #172 ) ) ;
#184 = AXIS2_PLACEMENT_3D ( 'NONE', #146, #255, #250 ) ;
#185 = ORIENTED_EDGE ( 'NONE', *, *, #128, .T. ) ;
#186 = DIRECTION ( 'NONE',  ( 0.000000000000000000, 0.000000000000000000, 1.000000000000000000 ) ) ;
#187 = CARTESIAN_POINT ( 'NONE',  ( 3.000000000000000000, 1.555301434917138433E-15, -12.69999999999999929 ) ) ;
#188 = DIRECTION ( 'NONE',  ( 1.000000000000000000, 0.000000000000000000, 0.000000000000000000 ) ) ;
#189 = CARTESIAN_POINT ( 'NONE',  ( -1.614212418857619014, 1.555301434917138433E-15, -12.69999999999999929 ) ) ;
#190 = FACE_OUTER_BOUND ( 'NONE', #323, .T. ) ;
#191 = AXIS2_PLACEMENT_3D ( 'NONE', #81, #188, #293 ) ;
#192 = CARTESIAN_POINT ( 'NONE',  ( 3.000000000000000000, 0.000000000000000000, 0.000000000000000000 ) ) ;
#193 = AXIS2_PLACEMENT_3D ( 'NONE', #117, #118, #211 ) ;
#194 = ADVANCED_FACE ( 'NONE', ( #304 ), #224, .F. ) ;
#195 = AXIS2_PLACEMENT_3D ( 'NONE', #23, #93, #148 ) ;
#196 = DIRECTION ( 'NONE',  ( -1.000000000000000000, -0.000000000000000000, -0.000000000000000000 ) ) ;
#197 = CC_DESIGN_PERSON_AND_ORGANIZATION_ASSIGNMENT ( #286, #98, ( #168 ) ) ;
#198 = EDGE_LOOP ( 'NONE', ( #316, #254, #229, #217 ) ) ;
#199 = CARTESIAN_POINT ( 'NONE',  ( 3.000000000000000000, 6.123233995736768255E-16, -5.000000000000001776 ) ) ;
#200 = ORIENTED_EDGE ( 'NONE', *, *, #89, .T. ) ;
#201 = CARTESIAN_POINT ( 'NONE',  ( -3.000000000000000000, 0.000000000000000000, 0.000000000000000000 ) ) ;
#202 = AXIS2_PLACEMENT_3D ( 'NONE', #37, #216, #322 ) ;
#203 = DIRECTION ( 'NONE',  ( -1.000000000000000000, -0.000000000000000000, -0.000000000000000000 ) ) ;
#204 = CIRCLE ( 'NONE', #284, 5.000000000000001776 ) ;
#205 = CIRCLE ( 'NONE', #125, 12.69999999999999929 ) ;
#206 = PERSON_AND_ORGANIZATION ( #228, #115 ) ;
#207 = DATE_AND_TIME ( #111, #40 ) ;
#208 = ORIENTED_EDGE ( 'NONE', *, *, #35, .F. ) ;
#209 = ADVANCED_FACE ( 'NONE', ( #67 ), #297, .F. ) ;
#210 = DATE_AND_TIME ( #135, #299 ) ;
#211 = DIRECTION ( 'NONE',  ( 0.000000000000000000, 0.000000000000000000, -1.000000000000000000 ) ) ;
#212 = PRODUCT_RELATED_PRODUCT_CATEGORY ( 'detail', '', ( #168 ) ) ;
#213 = AXIS2_PLACEMENT_3D ( 'NONE', #103, #288, #106 ) ;
#214 = DATE_TIME_ROLE ( 'classification_date' ) ;
#215 = CARTESIAN_POINT ( 'NONE',  ( 3.000000000000000000, 0.000000000000000000, 0.000000000000000000 ) ) ;
#216 = DIRECTION ( 'NONE',  ( 1.000000000000000000, 0.000000000000000000, 0.000000000000000000 ) ) ;
#217 = ORIENTED_EDGE ( 'NONE', *, *, #157, .F. ) ;
#218 = AXIS2_PLACEMENT_3D ( 'NONE', #13, #273, #321 ) ;
#219 = PLANE ( 'NONE',  #144 ) ;
#220 = CARTESIAN_POINT ( 'NONE',  ( -3.000000000000000000, 0.000000000000000000, 12.69999999999999929 ) ) ;
#221 = UNCERTAINTY_MEASURE_WITH_UNIT (LENGTH_MEASURE( 1.000000000000000082E-05 ), #260, 'distance_accuracy_value', 'NONE');
#222 = LINE ( 'NONE', #66, #32 ) ;
#223 = CIRCLE ( 'NONE', #31, 12.69999999999999929 ) ;
#224 = PLANE ( 'NONE',  #10 ) ;
#225 = ORIENTED_EDGE ( 'NONE', *, *, #15, .T. ) ;
#226 = CYLINDRICAL_SURFACE ( 'NONE', #277, 5.000000000000000888 ) ;
#227 = MANIFOLD_SOLID_BREP ( 'Ðý×', #49 ) ;
#228 = PERSON ( 'UNSPECIFIED', 'UNSPECIFIED', 'UNSPECIFIED', ('UNSPECIFIED'), ('UNSPECIFIED'), ('UNSPECIFIED') ) ;
#229 = ORIENTED_EDGE ( 'NONE', *, *, #154, .T. ) ;
#230 = EDGE_CURVE ( 'NONE', #159, #246, #327, .T. ) ;
#231 = EDGE_LOOP ( 'NONE', ( #270, #107, #185, #178 ) ) ;
#232 = CALENDAR_DATE ( 2021, 5, 1 ) ;
#233 = CIRCLE ( 'NONE', #176, 12.69999999999999929 ) ;
#234 = APPLICATION_PROTOCOL_DEFINITION ( 'international standard', 'config_control_design', 1994, #54 ) ;
#235 = CARTESIAN_POINT ( 'NONE',  ( 3.000000000000000000, 0.000000000000000000, 5.000000000000001776 ) ) ;
#236 = CIRCLE ( 'NONE', #272, 5.000000000000000000 ) ;
#237 = APPROVAL ( #2, 'UNSPECIFIED' ) ;
#238 = LOCAL_TIME ( 10, 34, 5.000000000000000000, #177 ) ;
#239 = APPROVAL_STATUS ( 'not_yet_approved' ) ;
#240 = ADVANCED_FACE ( 'NONE', ( #72 ), #325, .F. ) ;
#241 = FACE_OUTER_BOUND ( 'NONE', #283, .T. ) ;
#242 = FACE_BOUND ( 'NONE', #11, .T. ) ;
#243 = CC_DESIGN_PERSON_AND_ORGANIZATION_ASSIGNMENT ( #132, #174, ( #100 ) ) ;
#244 = VECTOR ( 'NONE', #51, 1000.000000000000000 ) ;
#245 = DIRECTION ( 'NONE',  ( -1.000000000000000000, 0.000000000000000000, -0.000000000000000000 ) ) ;
#246 = VERTEX_POINT ( 'NONE', #46 ) ;
#247 = CIRCLE ( 'NONE', #99, 5.000000000000001776 ) ;
#248 = DIRECTION ( 'NONE',  ( -1.000000000000000000, -0.000000000000000000, -0.000000000000000000 ) ) ;
#249 = DIRECTION ( 'NONE',  ( -1.000000000000000000, -0.000000000000000000, -0.000000000000000000 ) ) ;
#250 = DIRECTION ( 'NONE',  ( 0.000000000000000000, 0.000000000000000000, 1.000000000000000000 ) ) ;
#251 = ORIENTED_EDGE ( 'NONE', *, *, #102, .T. ) ;
#252 = EDGE_CURVE ( 'NONE', #167, #65, #233, .T. ) ;
#253 = CARTESIAN_POINT ( 'NONE',  ( -0.5000000000000002220, 6.123233995736767268E-16, -5.000000000000000888 ) ) ;
#254 = ORIENTED_EDGE ( 'NONE', *, *, #230, .T. ) ;
#255 = DIRECTION ( 'NONE',  ( -1.000000000000000000, -0.000000000000000000, -0.000000000000000000 ) ) ;
#256 = ORIENTED_EDGE ( 'NONE', *, *, #105, .F. ) ;
#257 = CYLINDRICAL_SURFACE ( 'NONE', #4, 5.000000000000000888 ) ;
#258 = PERSON_AND_ORGANIZATION ( #228, #115 ) ;
#259 = CIRCLE ( 'NONE', #39, 5.000000000000000000 ) ;
#260 =( LENGTH_UNIT ( ) NAMED_UNIT ( * ) SI_UNIT ( .MILLI., .METRE. ) );
#261 = CC_DESIGN_DATE_AND_TIME_ASSIGNMENT ( #287, #26, ( #100 ) ) ;
#262 = PERSON_AND_ORGANIZATION ( #228, #115 ) ;
#263 = ORIENTED_EDGE ( 'NONE', *, *, #20, .F. ) ;
#264 = APPROVAL_STATUS ( 'not_yet_approved' ) ;
#265 = APPROVAL ( #239, 'UNSPECIFIED' ) ;
#266 = CIRCLE ( 'NONE', #50, 12.69999999999999929 ) ;
#267 = COORDINATED_UNIVERSAL_TIME_OFFSET ( 8, 0, .AHEAD. ) ;
#268 = DIRECTION ( 'NONE',  ( -1.000000000000000000, -0.000000000000000000, -0.000000000000000000 ) ) ;
#269 = EDGE_CURVE ( 'NONE', #65, #170, #149, .T. ) ;
#270 = ORIENTED_EDGE ( 'NONE', *, *, #108, .F. ) ;
#271 = DIRECTION ( 'NONE',  ( -1.000000000000000000, -0.000000000000000000, -0.000000000000000000 ) ) ;
#272 = AXIS2_PLACEMENT_3D ( 'NONE', #182, #83, #141 ) ;
#273 = DIRECTION ( 'NONE',  ( -1.000000000000000000, -0.000000000000000000, -0.000000000000000000 ) ) ;
#274 = FACE_OUTER_BOUND ( 'NONE', #57, .T. ) ;
#275 = CC_DESIGN_PERSON_AND_ORGANIZATION_ASSIGNMENT ( #27, #110, ( #165 ) ) ;
#276 = DIRECTION ( 'NONE',  ( -1.000000000000000000, -0.000000000000000000, -0.000000000000000000 ) ) ;
#277 = AXIS2_PLACEMENT_3D ( 'NONE', #282, #249, #285 ) ;
#278 = DIRECTION ( 'NONE',  ( 1.000000000000000000, 0.000000000000000000, 0.000000000000000000 ) ) ;
#279 = CARTESIAN_POINT ( 'NONE',  ( -1.614212418857619014, 6.123233995736767268E-16, -5.000000000000000888 ) ) ;
#280 = ORIENTED_EDGE ( 'NONE', *, *, #6, .F. ) ;
#281 = ADVANCED_FACE ( 'NONE', ( #95 ), #145, .T. ) ;
#282 = CARTESIAN_POINT ( 'NONE',  ( -1.614212418857619014, 0.000000000000000000, 0.000000000000000000 ) ) ;
#283 = EDGE_LOOP ( 'NONE', ( #73, #58 ) ) ;
#284 = AXIS2_PLACEMENT_3D ( 'NONE', #12, #112, #186 ) ;
#285 = DIRECTION ( 'NONE',  ( 0.000000000000000000, 0.000000000000000000, 1.000000000000000000 ) ) ;
#286 = PERSON_AND_ORGANIZATION ( #228, #115 ) ;
#287 = DATE_AND_TIME ( #152, #238 ) ;
#288 = DIRECTION ( 'NONE',  ( 0.000000000000000000, 0.000000000000000000, 1.000000000000000000 ) ) ;
#289 = EDGE_LOOP ( 'NONE', ( #127, #8, #34, #96 ) ) ;
#290 = PERSON_AND_ORGANIZATION ( #228, #115 ) ;
#291 = PLANE ( 'NONE',  #333 ) ;
#292 = ORIENTED_EDGE ( 'NONE', *, *, #269, .F. ) ;
#293 = DIRECTION ( 'NONE',  ( 0.000000000000000000, 0.000000000000000000, -1.000000000000000000 ) ) ;
#294 = CARTESIAN_POINT ( 'NONE',  ( -1.614212418857619014, 0.000000000000000000, 12.69999999999999929 ) ) ;
#295 = AXIS2_PLACEMENT_3D ( 'NONE', #164, #276, #163 ) ;
#296 = DIRECTION ( 'NONE',  ( -1.000000000000000000, -0.000000000000000000, -0.000000000000000000 ) ) ;
#297 = CYLINDRICAL_SURFACE ( 'NONE', #195, 5.000000000000000888 ) ;
#298 = CARTESIAN_POINT ( 'NONE',  ( -3.000000000000000000, 1.555301434917138433E-15, -12.69999999999999929 ) ) ;
#299 = LOCAL_TIME ( 10, 34, 5.000000000000000000, #320 ) ;
#300 = DIRECTION ( 'NONE',  ( -1.000000000000000000, -0.000000000000000000, -0.000000000000000000 ) ) ;
#301 = EDGE_CURVE ( 'NONE', #170, #173, #205, .T. ) ;
#302 = CARTESIAN_POINT ( 'NONE',  ( -1.614212418857619014, 0.000000000000000000, 0.000000000000000000 ) ) ;
#303 = EDGE_LOOP ( 'NONE', ( #292, #52, #162, #87 ) ) ;
#304 = FACE_OUTER_BOUND ( 'NONE', #97, .T. ) ;
#305 = VERTEX_POINT ( 'NONE', #48 ) ;
#306 = DATE_AND_TIME ( #151, #119 ) ;
#307 = ORIENTED_EDGE ( 'NONE', *, *, #252, .F. ) ;
#308 = FACE_OUTER_BOUND ( 'NONE', #289, .T. ) ;
#309 = ADVANCED_FACE ( 'NONE', ( #308 ), #257, .F. ) ;
#310 = COORDINATED_UNIVERSAL_TIME_OFFSET ( 8, 0, .AHEAD. ) ;
#311 = VECTOR ( 'NONE', #268, 1000.000000000000000 ) ;
#312 = APPROVAL_PERSON_ORGANIZATION ( #36, #265, #315 ) ;
#313 = APPLICATION_PROTOCOL_DEFINITION ( 'international standard', 'config_control_design', 1994, #43 ) ;
#314 = VERTEX_POINT ( 'NONE', #332 ) ;
#315 = APPROVAL_ROLE ( '' ) ;
#316 = ORIENTED_EDGE ( 'NONE', *, *, #105, .T. ) ;
#317 = EDGE_CURVE ( 'NONE', #173, #170, #266, .T. ) ;
#318 = LINE ( 'NONE', #279, #74 ) ;
#319 =( GEOMETRIC_REPRESENTATION_CONTEXT ( 3 ) GLOBAL_UNCERTAINTY_ASSIGNED_CONTEXT ( ( #221 ) ) GLOBAL_UNIT_ASSIGNED_CONTEXT ( ( #260, #78, #131 ) ) REPRESENTATION_CONTEXT ( 'NONE', 'WORKASPACE' ) );
#320 = COORDINATED_UNIVERSAL_TIME_OFFSET ( 8, 0, .AHEAD. ) ;
#321 = DIRECTION ( 'NONE',  ( 0.000000000000000000, 0.000000000000000000, 1.000000000000000000 ) ) ;
#322 = DIRECTION ( 'NONE',  ( 0.000000000000000000, 0.000000000000000000, -1.000000000000000000 ) ) ;
#323 = EDGE_LOOP ( 'NONE', ( #3, #225, #155, #147 ) ) ;
#324 = LOCAL_TIME ( 10, 34, 5.000000000000000000, #310 ) ;
#325 = CYLINDRICAL_SURFACE ( 'NONE', #184, 5.000000000000000888 ) ;
#326 = DIRECTION ( 'NONE',  ( -1.000000000000000000, 0.000000000000000000, -0.000000000000000000 ) ) ;
#327 = LINE ( 'NONE', #328, #244 ) ;
#328 = CARTESIAN_POINT ( 'NONE',  ( -1.614212418857619014, 6.123233995736767268E-16, -5.000000000000000888 ) ) ;
#329 = ORIENTED_EDGE ( 'NONE', *, *, #252, .T. ) ;
#330 = CARTESIAN_POINT ( 'NONE',  ( -3.000000000000000000, 0.000000000000000000, 5.000000000000000000 ) ) ;
#331 = VERTEX_POINT ( 'NONE', #235 ) ;
#332 = CARTESIAN_POINT ( 'NONE',  ( 0.5000000000000004441, 0.000000000000000000, 5.000000000000000000 ) ) ;
#333 = AXIS2_PLACEMENT_3D ( 'NONE', #80, #245, #42 ) ;
#334 = DATE_AND_TIME ( #232, #324 ) ;
#335 = CIRCLE ( 'NONE', #295, 5.000000000000000000 ) ;
ENDSEC;
END-ISO-10303-21;
